[ L'histoire ] [ Wallpapers ] [ Musiques ] [ Gifs ] [ Scans ] [ Personnages ] [ Le Résumé ] [ Vidéos ] [ GUNS ] [ Fiche Tech. ] [ Symbolisme ] [ Fanfics ] [ Karaoke ] [ Clip Vidéo ] [ Figurines ] [ SkinWinamp ] [ Forum ] [ Livre D'or ] [ Contact ] [ FAQ ] [ Top-Sites ] [ Partenaires ]
 

Voici les tablatures de la zik Fool's Paradise!

 

Fool's Paradise
Trigun
The First Donuts

Chords basically alternate between these two (not too hard to figure
Out the changes)I think this is a 12-string guitar:
E--------2--------------------------------------------------------------
B--3-----3--------------------------------------------------------------
G--2-----2--------------------------------------------------------------
D--2-----2--------------------------------------------------------------
A-(0)---(0)--------------------------------------------------------------
E--X-----X-------------------------------------------------------------

Tab part:

E--/10-10-10-10-8----8----8---------------------------------------------
B-----------------10---10---10-8----------------------------------------
G--------------------------------7---7----------------------------------
D-------------------------------------9-7-h-9-7h9-9-9-9-9/10~-----------
A-----------------------------------------------------------------------
E-----------------------------------------------------------------------

E------------------------------10---------------------------------------
B----------------------------10--10-------------------------------------
G--7-7h9-9-9----7~~----------------12-10--------------------------------
D------------10-------------------------12-10~~-------------------------
A-----------------------------------------------------------------------
E-----------------------------------------------------------------------

E-----------------------------------------------------------------------
B----7h8-8-7----------7-8-7-----------5-6~--6p5-6p5-6p5-6p5-6-7~-7\3----
G-7h9-------9-8-7~-7-9------9-8-7~-5-7----------7---7---7---------------
D-----------------------------------------------------------------------
A-----------------------------------------------------------------------
E-----------------------------------------------------------------------

E-----------------------------------------------------------------------
B----5h6h7~--7\3~----5h6h7~--7-8-7--------------------------------------
G--7---------------7---------------9~---9-------9-9-7----9--------------
D-----------------------------------------10/12-------10---9------------
A-----------------------------------------------------------------------
E-----------------------------------------------------------------------

(1:11)
E------------5--6-6-6-8-9-6------4-5-6-6-6-8-9-13-12----11--------------
B-------5h6h7---------------7~--7--------------------13---12------------
G-7~-5h7----------------------------------------------------------------
D-----------------------------------------------------------------------
A-----------------------------------------------------------------------
E-----------------------------------------------------------------------

E--6--6-6-8-9-6---------------------------------------------------------
B---------------7--5----------------------------------------------------
G--------------------7\-------------------------------------------------
D-----------------------------------------------------------------------
A-----------------------------------------------------------------------
E-----------------------------------------------------------------------
Brass solo then just some of the parts repeated.

Tab by: vganimegt@yahoo.co.uk
http://www.geocities.com/vganimegt


 

 

Copyright © Trigun World. Tous droits réservés.